ISO-10303-21;
HEADER;
FILE_DESCRIPTION (( 'STEP AP203' ),
    '1' );
FILE_NAME ('BK7-LPBSC-20-980.STEP',
    '2020-12-22T03:13:59',
    ( '' ),
    ( '' ),
    'SwSTEP 2.0',
    'SolidWorks 2020',
    '' );
FILE_SCHEMA (( 'CONFIG_CONTROL_DESIGN' ));
ENDSEC;

DATA;
#1 = VERTEX_POINT ( 'NONE', #62 ) ;
#2 = EDGE_CURVE ( 'NONE', #36, #102, #91, .T. ) ;
#3 = ORIENTED_EDGE ( 'NONE', *, *, #281, .T. ) ;
#4 = VECTOR ( 'NONE', #245, 1000.000000000000000 ) ;
#5 = PLANE ( 'NONE',  #151 ) ;
#6 = FACE_OUTER_BOUND ( 'NONE', #304, .T. ) ;
#7 = CARTESIAN_POINT ( 'NONE',  ( -9.999999999999998224, 10.00000000000000355, -10.00000000000000000 ) ) ;
#8 = APPLICATION_PROTOCOL_DEFINITION ( 'international standard', 'config_control_design', 1994, #14 ) ;
#9 = PERSON_AND_ORGANIZATION_ROLE ( 'design_owner' ) ;
#10 = APPROVAL_ROLE ( '' ) ;
#11 = VERTEX_POINT ( 'NONE', #38 ) ;
#12 = DATE_AND_TIME ( #158, #179 ) ;
#13 = VECTOR ( 'NONE', #20, 1000.000000000000000 ) ;
#14 = APPLICATION_CONTEXT ( 'configuration controlled 3d designs of mechanical parts and assemblies' ) ;
#15 = SHAPE_DEFINITION_REPRESENTATION ( #45, #60 ) ;
#16 = EDGE_CURVE ( 'NONE', #229, #101, #285, .T. ) ;
#17 = PLANE ( 'NONE',  #241 ) ;
#18 = ADVANCED_FACE ( 'NONE', ( #64 ), #211, .F. ) ;
#19 = DIRECTION ( 'NONE',  ( 2.220446049250313081E-16, 1.000000000000000000, 0.000000000000000000 ) ) ;
#20 = DIRECTION ( 'NONE',  ( -0.000000000000000000, -0.000000000000000000, -1.000000000000000000 ) ) ;
#21 = VECTOR ( 'NONE', #67, 1000.000000000000000 ) ;
#22 = DIRECTION ( 'NONE',  ( -0.000000000000000000, -0.000000000000000000, -1.000000000000000000 ) ) ;
#23 = LOCAL_TIME ( 11, 13, 59.00000000000000000, #255 ) ;
#24 = FACE_OUTER_BOUND ( 'NONE', #122, .T. ) ;
#25 = ORIENTED_EDGE ( 'NONE', *, *, #196, .T. ) ;
#26 = ORIENTED_EDGE ( 'NONE', *, *, #31, .F. ) ;
#27 = VERTEX_POINT ( 'NONE', #242 ) ;
#28 = AXIS2_PLACEMENT_3D ( 'NONE', #235, #305, #254 ) ;
#29 = EDGE_CURVE ( 'NONE', #102, #229, #115, .T. ) ;
#30 = LINE ( 'NONE', #280, #118 ) ;
#31 = EDGE_CURVE ( 'NONE', #11, #144, #264, .T. ) ;
#32 = PLANE ( 'NONE',  #72 ) ;
#33 = CARTESIAN_POINT ( 'NONE',  ( 0.000000000000000000, 0.000000000000000000, 0.000000000000000000 ) ) ;
#34 = ADVANCED_FACE ( 'NONE', ( #119 ), #17, .F. ) ;
#35 = CALENDAR_DATE ( 2020, 22, 12 ) ;
#36 = VERTEX_POINT ( 'NONE', #316 ) ;
#37 = CALENDAR_DATE ( 2020, 22, 12 ) ;
#38 = CARTESIAN_POINT ( 'NONE',  ( 10.00000000000000178, -10.00000000000000000, -10.00000000000000000 ) ) ;
#39 = CALENDAR_DATE ( 2020, 22, 12 ) ;
#40 = VECTOR ( 'NONE', #287, 1000.000000000000000 ) ;
#41 = PLANE ( 'NONE',  #100 ) ;
#42 = LINE ( 'NONE', #318, #256 ) ;
#43 = EDGE_CURVE ( 'NONE', #36, #27, #290, .T. ) ;
#44 = APPROVAL_PERSON_ORGANIZATION ( #181, #209, #65 ) ;
#45 = PRODUCT_DEFINITION_SHAPE ( 'NONE', 'NONE',  #92 ) ;
#46 = DIRECTION ( 'NONE',  ( 2.220446049250313081E-16, 1.000000000000000000, 0.000000000000000000 ) ) ;
#47 = CARTESIAN_POINT ( 'NONE',  ( 10.00000000000000178, 9.999999999999998224, -10.00000000000000000 ) ) ;
#48 = ORIENTED_EDGE ( 'NONE', *, *, #2, .F. ) ;
#49 = ORIENTED_EDGE ( 'NONE', *, *, #75, .F. ) ;
#50 = EDGE_CURVE ( 'NONE', #1, #230, #243, .T. ) ;
#51 = LOCAL_TIME ( 11, 13, 59.00000000000000000, #210 ) ;
#52 = CARTESIAN_POINT ( 'NONE',  ( -9.999999999999998224, -10.00000000000000000, -10.00000000000000000 ) ) ;
#53 = ORIENTED_EDGE ( 'NONE', *, *, #259, .F. ) ;
#54 = ORIENTED_EDGE ( 'NONE', *, *, #43, .T. ) ;
#55 = MANIFOLD_SOLID_BREP ( 'Í¹Ì¨-À', #96 ) ;
#56 = ADVANCED_FACE ( 'NONE', ( #190 ), #116, .F. ) ;
#57 = VECTOR ( 'NONE', #258, 1000.000000000000000 ) ;
#58 = CARTESIAN_POINT ( 'NONE',  ( 10.00000000000000178, -10.00000000000000000, 10.00000000000000000 ) ) ;
#59 = APPROVAL_STATUS ( 'not_yet_approved' ) ;
#60 = ADVANCED_BREP_SHAPE_REPRESENTATION ( 'BK7-LPBSC-20-980', ( #55, #270, #88 ), #306 ) ;
#61 = APPLICATION_PROTOCOL_DEFINITION ( 'international standard', 'config_control_design', 1994, #78 ) ;
#62 = CARTESIAN_POINT ( 'NONE',  ( -9.999999999999998224, -10.00000000000000000, 10.00000000000000000 ) ) ;
#63 = APPROVAL_ROLE ( '' ) ;
#64 = FACE_OUTER_BOUND ( 'NONE', #143, .T. ) ;
#65 = APPROVAL_ROLE ( '' ) ;
#66 = CC_DESIGN_APPROVAL ( #222, ( #121 ) ) ;
#67 = DIRECTION ( 'NONE',  ( -0.7071067811865475727, -0.7071067811865474617, 0.000000000000000000 ) ) ;
#68 = LINE ( 'NONE', #70, #271 ) ;
#69 = DIRECTION ( 'NONE',  ( -0.7071067811865474617, 0.7071067811865475727, 0.000000000000000000 ) ) ;
#70 = CARTESIAN_POINT ( 'NONE',  ( 10.00000000000000178, 9.999999999999998224, 10.00000000000000000 ) ) ;
#71 = PRODUCT_RELATED_PRODUCT_CATEGORY ( 'detail', '', ( #297 ) ) ;
#72 = AXIS2_PLACEMENT_3D ( 'NONE', #106, #108, #85 ) ;
#73 = CARTESIAN_POINT ( 'NONE',  ( -9.999999999999998224, -10.00000000000000000, 10.00000000000000000 ) ) ;
#74 = LINE ( 'NONE', #228, #317 ) ;
#75 = EDGE_CURVE ( 'NONE', #230, #11, #42, .T. ) ;
#76 = ORIENTED_EDGE ( 'NONE', *, *, #296, .F. ) ;
#77 =( LENGTH_UNIT ( ) NAMED_UNIT ( * ) SI_UNIT ( .MILLI., .METRE. ) );
#78 = APPLICATION_CONTEXT ( 'configuration controlled 3d designs of mechanical parts and assemblies' ) ;
#79 = VECTOR ( 'NONE', #19, 1000.000000000000000 ) ;
#80 = LINE ( 'NONE', #319, #231 ) ;
#81 = ORIENTED_EDGE ( 'NONE', *, *, #43, .F. ) ;
#82 = EDGE_CURVE ( 'NONE', #172, #1, #98, .T. ) ;
#83 = ORIENTED_EDGE ( 'NONE', *, *, #50, .F. ) ;
#84 = PRODUCT_DEFINITION_FORMATION_WITH_SPECIFIED_SOURCE ( 'ANY', '', #297, .NOT_KNOWN. ) ;
#85 = DIRECTION ( 'NONE',  ( 0.000000000000000000, -0.000000000000000000, 1.000000000000000000 ) ) ;
#86 = DATE_AND_TIME ( #39, #23 ) ;
#87 = DIRECTION ( 'NONE',  ( 1.000000000000000000, -2.220446049250313081E-16, 0.000000000000000000 ) ) ;
#88 = AXIS2_PLACEMENT_3D ( 'NONE', #33, #128, #288 ) ;
#89 = APPROVAL_PERSON_ORGANIZATION ( #312, #222, #10 ) ;
#90 = APPROVAL_STATUS ( 'not_yet_approved' ) ;
#91 = LINE ( 'NONE', #213, #40 ) ;
#92 = PRODUCT_DEFINITION ( 'UNKNOWN', '', #84, #95 ) ;
#93 = DIRECTION ( 'NONE',  ( 0.7071067811865475727, 0.7071067811865474617, 0.000000000000000000 ) ) ;
#94 = LINE ( 'NONE', #189, #295 ) ;
#95 = DESIGN_CONTEXT ( 'detailed design', #14, 'design' ) ;
#96 = CLOSED_SHELL ( 'NONE', ( #112, #137, #56, #265, #18 ) ) ;
#97 = CARTESIAN_POINT ( 'NONE',  ( -9.999999999999998224, -10.00000000000000000, 10.00000000000000000 ) ) ;
#98 = LINE ( 'NONE', #187, #21 ) ;
#99 = LINE ( 'NONE', #73, #193 ) ;
#100 = AXIS2_PLACEMENT_3D ( 'NONE', #166, #220, #294 ) ;
#101 = VERTEX_POINT ( 'NONE', #282 ) ;
#102 = VERTEX_POINT ( 'NONE', #7 ) ;
#103 = ORIENTED_EDGE ( 'NONE', *, *, #16, .T. ) ;
#104 = VERTEX_POINT ( 'NONE', #58 ) ;
#105 = PERSON ( 'UNSPECIFIED', 'UNSPECIFIED', 'UNSPECIFIED', ('UNSPECIFIED'), ('UNSPECIFIED'), ('UNSPECIFIED') ) ;
#106 = CARTESIAN_POINT ( 'NONE',  ( -9.999999999999998224, -10.00000000000000000, 10.00000000000000000 ) ) ;
#107 = VECTOR ( 'NONE', #191, 1000.000000000000000 ) ;
#108 = DIRECTION ( 'NONE',  ( 0.000000000000000000, 1.000000000000000000, 0.000000000000000000 ) ) ;
#109 =( NAMED_UNIT ( * ) SI_UNIT ( $, .STERADIAN. ) SOLID_ANGLE_UNIT ( ) );
#110 = COORDINATED_UNIVERSAL_TIME_OFFSET ( 8, 0, .AHEAD. ) ;
#111 = ORIENTED_EDGE ( 'NONE', *, *, #296, .T. ) ;
#112 = ADVANCED_FACE ( 'NONE', ( #153 ), #237, .F. ) ;
#113 = ORIENTED_EDGE ( 'NONE', *, *, #276, .F. ) ;
#114 = APPROVAL_STATUS ( 'not_yet_approved' ) ;
#115 = LINE ( 'NONE', #311, #140 ) ;
#116 = PLANE ( 'NONE',  #155 ) ;
#117 = LINE ( 'NONE', #47, #252 ) ;
#118 = VECTOR ( 'NONE', #236, 1000.000000000000000 ) ;
#119 = FACE_OUTER_BOUND ( 'NONE', #234, .T. ) ;
#120 = FACE_OUTER_BOUND ( 'NONE', #171, .T. ) ;
#121 = SECURITY_CLASSIFICATION ( '', '', #284 ) ;
#122 = EDGE_LOOP ( 'NONE', ( #314, #48, #54, #248 ) ) ;
#123 = CARTESIAN_POINT ( 'NONE',  ( 0.000000000000000000, 0.000000000000000000, 10.00000000000000000 ) ) ;
#124 = ORIENTED_EDGE ( 'NONE', *, *, #16, .F. ) ;
#125 = ORIENTED_EDGE ( 'NONE', *, *, #202, .F. ) ;
#126 = LINE ( 'NONE', #164, #107 ) ;
#127 = APPROVAL ( #90, 'UNSPECIFIED' ) ;
#128 = DIRECTION ( 'NONE',  ( 0.000000000000000000, 0.000000000000000000, 1.000000000000000000 ) ) ;
#129 = PERSON_AND_ORGANIZATION ( #105, #161 ) ;
#130 = EDGE_LOOP ( 'NONE', ( #274, #275, #113, #3 ) ) ;
#131 = CC_DESIGN_DATE_AND_TIME_ASSIGNMENT ( #86, #156, ( #121 ) ) ;
#132 = DATE_AND_TIME ( #37, #205 ) ;
#133 = DIRECTION ( 'NONE',  ( 1.000000000000000000, 0.000000000000000000, 0.000000000000000000 ) ) ;
#134 = CC_DESIGN_APPROVAL ( #127, ( #92 ) ) ;
#135 = COORDINATED_UNIVERSAL_TIME_OFFSET ( 8, 0, .AHEAD. ) ;
#136 = CARTESIAN_POINT ( 'NONE',  ( 10.00000000000000000, 10.00000000000000000, 10.00000000000000000 ) ) ;
#137 = ADVANCED_FACE ( 'NONE', ( #6 ), #32, .F. ) ;
#138 = CARTESIAN_POINT ( 'NONE',  ( -10.00000000000000178, -9.999999999999996447, 10.00000000000000000 ) ) ;
#139 = DIRECTION ( 'NONE',  ( 0.000000000000000000, 0.000000000000000000, 1.000000000000000000 ) ) ;
#140 = VECTOR ( 'NONE', #87, 1000.000000000000000 ) ;
#141 = ADVANCED_FACE ( 'NONE', ( #204 ), #206, .F. ) ;
#142 = PLANE ( 'NONE',  #279 ) ;
#143 = EDGE_LOOP ( 'NONE', ( #125, #26, #49 ) ) ;
#144 = VERTEX_POINT ( 'NONE', #307 ) ;
#145 = VECTOR ( 'NONE', #293, 1000.000000000000000 ) ;
#146 = EDGE_CURVE ( 'NONE', #174, #101, #30, .T. ) ;
#147 = CARTESIAN_POINT ( 'NONE',  ( -10.00000000000000178, -9.999999999999996447, 10.00000000000000000 ) ) ;
#148 = ORIENTED_EDGE ( 'NONE', *, *, #207, .T. ) ;
#149 = EDGE_LOOP ( 'NONE', ( #301, #177, #178, #197 ) ) ;
#150 = PLANE ( 'NONE',  #219 ) ;
#151 = AXIS2_PLACEMENT_3D ( 'NONE', #123, #224, #194 ) ;
#152 = CARTESIAN_POINT ( 'NONE',  ( -10.00000000000000178, -9.999999999999996447, 10.00000000000000000 ) ) ;
#153 = FACE_OUTER_BOUND ( 'NONE', #176, .T. ) ;
#154 = PERSON_AND_ORGANIZATION ( #105, #161 ) ;
#155 = AXIS2_PLACEMENT_3D ( 'NONE', #165, #267, #139 ) ;
#156 = DATE_TIME_ROLE ( 'classification_date' ) ;
#157 = EDGE_LOOP ( 'NONE', ( #103, #25, #303 ) ) ;
#158 = CALENDAR_DATE ( 2020, 22, 12 ) ;
#159 = CARTESIAN_POINT ( 'NONE',  ( 0.000000000000000000, 0.000000000000000000, -10.00000000000000000 ) ) ;
#160 = APPROVAL_DATE_TIME ( #208, #127 ) ;
#161 = ORGANIZATION ( 'UNSPECIFIED', 'UNSPECIFIED', '' ) ;
#162 = APPROVAL_DATE_TIME ( #239, #209 ) ;
#163 = CARTESIAN_POINT ( 'NONE',  ( 10.00000000000000000, 10.00000000000000000, 10.00000000000000000 ) ) ;
#164 = CARTESIAN_POINT ( 'NONE',  ( 10.00000000000000000, 10.00000000000000000, 10.00000000000000000 ) ) ;
#165 = CARTESIAN_POINT ( 'NONE',  ( 10.00000000000000178, 9.999999999999998224, 10.00000000000000000 ) ) ;
#166 = CARTESIAN_POINT ( 'NONE',  ( 10.00000000000000000, 10.00000000000000000, 10.00000000000000000 ) ) ;
#167 = EDGE_CURVE ( 'NONE', #27, #229, #126, .T. ) ;
#168 = CLOSED_SHELL ( 'NONE', ( #34, #141, #186, #310, #313 ) ) ;
#169 = UNCERTAINTY_MEASURE_WITH_UNIT (LENGTH_MEASURE( 1.000000000000000082E-05 ), #77, 'distance_accuracy_value', 'NONE');
#170 = DIRECTION ( 'NONE',  ( 1.000000000000000000, 0.000000000000000000, 0.000000000000000000 ) ) ;
#171 = EDGE_LOOP ( 'NONE', ( #185, #81, #53 ) ) ;
#172 = VERTEX_POINT ( 'NONE', #266 ) ;
#173 = CARTESIAN_POINT ( 'NONE',  ( 0.000000000000000000, 0.000000000000000000, -10.00000000000000000 ) ) ;
#174 = VERTEX_POINT ( 'NONE', #138 ) ;
#175 = CC_DESIGN_PERSON_AND_ORGANIZATION_ASSIGNMENT ( #154, #215, ( #84 ) ) ;
#176 = EDGE_LOOP ( 'NONE', ( #273, #83, #298, #278 ) ) ;
#177 = ORIENTED_EDGE ( 'NONE', *, *, #146, .F. ) ;
#178 = ORIENTED_EDGE ( 'NONE', *, *, #259, .T. ) ;
#179 = LOCAL_TIME ( 11, 13, 59.00000000000000000, #110 ) ;
#180 = DIRECTION ( 'NONE',  ( 0.000000000000000000, 0.000000000000000000, 1.000000000000000000 ) ) ;
#181 = PERSON_AND_ORGANIZATION ( #105, #161 ) ;
#182 = AXIS2_PLACEMENT_3D ( 'NONE', #152, #253, #180 ) ;
#183 = CARTESIAN_POINT ( 'NONE',  ( 10.00000000000000000, 10.00000000000000000, -10.00000000000000000 ) ) ;
#184 = PERSON_AND_ORGANIZATION ( #105, #161 ) ;
#185 = ORIENTED_EDGE ( 'NONE', *, *, #207, .F. ) ;
#186 = ADVANCED_FACE ( 'NONE', ( #24 ), #41, .F. ) ;
#187 = CARTESIAN_POINT ( 'NONE',  ( 10.00000000000000178, 9.999999999999998224, 10.00000000000000000 ) ) ;
#188 = AXIS2_PLACEMENT_3D ( 'NONE', #159, #261, #133 ) ;
#189 = CARTESIAN_POINT ( 'NONE',  ( 10.00000000000000000, 10.00000000000000000, 10.00000000000000000 ) ) ;
#190 = FACE_OUTER_BOUND ( 'NONE', #130, .T. ) ;
#191 = DIRECTION ( 'NONE',  ( -0.000000000000000000, 0.000000000000000000, -1.000000000000000000 ) ) ;
#192 = EDGE_CURVE ( 'NONE', #172, #144, #68, .T. ) ;
#193 = VECTOR ( 'NONE', #170, 1000.000000000000000 ) ;
#194 = DIRECTION ( 'NONE',  ( 1.000000000000000000, 0.000000000000000000, 0.000000000000000000 ) ) ;
#195 = EDGE_LOOP ( 'NONE', ( #226, #111, #240 ) ) ;
#196 = EDGE_CURVE ( 'NONE', #101, #102, #269, .T. ) ;
#197 = ORIENTED_EDGE ( 'NONE', *, *, #2, .T. ) ;
#198 = CC_DESIGN_DATE_AND_TIME_ASSIGNMENT ( #12, #260, ( #92 ) ) ;
#199 = VECTOR ( 'NONE', #300, 1000.000000000000000 ) ;
#200 = CARTESIAN_POINT ( 'NONE',  ( 10.00000000000000000, 10.00000000000000000, -10.00000000000000000 ) ) ;
#201 = ORIENTED_EDGE ( 'NONE', *, *, #50, .T. ) ;
#202 = EDGE_CURVE ( 'NONE', #144, #230, #117, .T. ) ;
#203 = ORIENTED_EDGE ( 'NONE', *, *, #146, .T. ) ;
#204 = FACE_OUTER_BOUND ( 'NONE', #149, .T. ) ;
#205 = LOCAL_TIME ( 11, 13, 59.00000000000000000, #135 ) ;
#206 = PLANE ( 'NONE',  #182 ) ;
#207 = EDGE_CURVE ( 'NONE', #27, #174, #94, .T. ) ;
#208 = DATE_AND_TIME ( #35, #225 ) ;
#209 = APPROVAL ( #59, 'UNSPECIFIED' ) ;
#210 = COORDINATED_UNIVERSAL_TIME_OFFSET ( 8, 0, .AHEAD. ) ;
#211 = PLANE ( 'NONE',  #188 ) ;
#212 = COORDINATED_UNIVERSAL_TIME_OFFSET ( 8, 0, .AHEAD. ) ;
#213 = CARTESIAN_POINT ( 'NONE',  ( -9.999999999999998224, 10.00000000000000355, 10.00000000000000000 ) ) ;
#214 = APPROVAL_DATE_TIME ( #132, #222 ) ;
#215 = PERSON_AND_ORGANIZATION_ROLE ( 'design_supplier' ) ;
#216 = CC_DESIGN_PERSON_AND_ORGANIZATION_ASSIGNMENT ( #184, #9, ( #297 ) ) ;
#217 = DIRECTION ( 'NONE',  ( -0.000000000000000000, -0.000000000000000000, -1.000000000000000000 ) ) ;
#218 = DIRECTION ( 'NONE',  ( 1.000000000000000000, 0.000000000000000000, 0.000000000000000000 ) ) ;
#219 = AXIS2_PLACEMENT_3D ( 'NONE', #173, #227, #277 ) ;
#220 = DIRECTION ( 'NONE',  ( -2.220446049250313081E-16, -1.000000000000000000, 0.000000000000000000 ) ) ;
#221 = CARTESIAN_POINT ( 'NONE',  ( 10.00000000000000178, 9.999999999999998224, -10.00000000000000000 ) ) ;
#222 = APPROVAL ( #114, 'UNSPECIFIED' ) ;
#223 = DIRECTION ( 'NONE',  ( 0.000000000000000000, -0.000000000000000000, 1.000000000000000000 ) ) ;
#224 = DIRECTION ( 'NONE',  ( -0.000000000000000000, 0.000000000000000000, 1.000000000000000000 ) ) ;
#225 = LOCAL_TIME ( 11, 13, 59.00000000000000000, #212 ) ;
#226 = ORIENTED_EDGE ( 'NONE', *, *, #82, .T. ) ;
#227 = DIRECTION ( 'NONE',  ( 0.000000000000000000, -0.000000000000000000, 1.000000000000000000 ) ) ;
#228 = CARTESIAN_POINT ( 'NONE',  ( 10.00000000000000178, 9.999999999999998224, 10.00000000000000000 ) ) ;
#229 = VERTEX_POINT ( 'NONE', #200 ) ;
#230 = VERTEX_POINT ( 'NONE', #52 ) ;
#231 = VECTOR ( 'NONE', #22, 1000.000000000000000 ) ;
#232 =( NAMED_UNIT ( * ) PLANE_ANGLE_UNIT ( ) SI_UNIT ( $, .RADIAN. ) );
#233 = LINE ( 'NONE', #147, #199 ) ;
#234 = EDGE_LOOP ( 'NONE', ( #124, #320, #148, #203 ) ) ;
#235 = CARTESIAN_POINT ( 'NONE',  ( 10.00000000000000178, 9.999999999999998224, 10.00000000000000000 ) ) ;
#236 = DIRECTION ( 'NONE',  ( -0.000000000000000000, 0.000000000000000000, -1.000000000000000000 ) ) ;
#237 = PLANE ( 'NONE',  #28 ) ;
#238 = MECHANICAL_CONTEXT ( 'NONE', #78, 'mechanical' ) ;
#239 = DATE_AND_TIME ( #309, #51 ) ;
#240 = ORIENTED_EDGE ( 'NONE', *, *, #276, .T. ) ;
#241 = AXIS2_PLACEMENT_3D ( 'NONE', #163, #69, #93 ) ;
#242 = CARTESIAN_POINT ( 'NONE',  ( 10.00000000000000000, 10.00000000000000000, 10.00000000000000000 ) ) ;
#243 = LINE ( 'NONE', #97, #13 ) ;
#244 = CARTESIAN_POINT ( 'NONE',  ( -10.00000000000000178, -9.999999999999996447, -10.00000000000000000 ) ) ;
#245 = DIRECTION ( 'NONE',  ( -0.000000000000000000, 1.000000000000000000, -0.000000000000000000 ) ) ;
#246 = CC_DESIGN_PERSON_AND_ORGANIZATION_ASSIGNMENT ( #129, #289, ( #121 ) ) ;
#247 = FACE_OUTER_BOUND ( 'NONE', #157, .T. ) ;
#248 = ORIENTED_EDGE ( 'NONE', *, *, #167, .T. ) ;
#249 = CC_DESIGN_SECURITY_CLASSIFICATION ( #121, ( #84 ) ) ;
#250 = FACE_OUTER_BOUND ( 'NONE', #195, .T. ) ;
#251 = ORIENTED_EDGE ( 'NONE', *, *, #75, .T. ) ;
#252 = VECTOR ( 'NONE', #315, 1000.000000000000000 ) ;
#253 = DIRECTION ( 'NONE',  ( 1.000000000000000000, -2.220446049250313081E-16, 0.000000000000000000 ) ) ;
#254 = DIRECTION ( 'NONE',  ( 0.7071067811865475727, 0.7071067811865474617, 0.000000000000000000 ) ) ;
#255 = COORDINATED_UNIVERSAL_TIME_OFFSET ( 8, 0, .AHEAD. ) ;
#256 = VECTOR ( 'NONE', #218, 1000.000000000000000 ) ;
#257 = PERSON_AND_ORGANIZATION ( #105, #161 ) ;
#258 = DIRECTION ( 'NONE',  ( -0.7071067811865475727, -0.7071067811865474617, 0.000000000000000000 ) ) ;
#259 = EDGE_CURVE ( 'NONE', #174, #36, #233, .T. ) ;
#260 = DATE_TIME_ROLE ( 'creation_date' ) ;
#261 = DIRECTION ( 'NONE',  ( -0.000000000000000000, 0.000000000000000000, 1.000000000000000000 ) ) ;
#262 = PERSON_AND_ORGANIZATION ( #105, #161 ) ;
#263 = CC_DESIGN_APPROVAL ( #209, ( #84 ) ) ;
#264 = LINE ( 'NONE', #221, #4 ) ;
#265 = ADVANCED_FACE ( 'NONE', ( #250 ), #5, .T. ) ;
#266 = CARTESIAN_POINT ( 'NONE',  ( 10.00000000000000178, 9.999999999999998224, 10.00000000000000000 ) ) ;
#267 = DIRECTION ( 'NONE',  ( -1.000000000000000000, 0.000000000000000000, 0.000000000000000000 ) ) ;
#268 = CC_DESIGN_PERSON_AND_ORGANIZATION_ASSIGNMENT ( #257, #283, ( #92 ) ) ;
#269 = LINE ( 'NONE', #244, #79 ) ;
#270 = MANIFOLD_SOLID_BREP ( '¾µÏ', #168 ) ;
#271 = VECTOR ( 'NONE', #217, 1000.000000000000000 ) ;
#272 = CARTESIAN_POINT ( 'NONE',  ( 0.000000000000000000, 0.000000000000000000, 10.00000000000000000 ) ) ;
#273 = ORIENTED_EDGE ( 'NONE', *, *, #202, .T. ) ;
#274 = ORIENTED_EDGE ( 'NONE', *, *, #31, .T. ) ;
#275 = ORIENTED_EDGE ( 'NONE', *, *, #192, .F. ) ;
#276 = EDGE_CURVE ( 'NONE', #104, #172, #74, .T. ) ;
#277 = DIRECTION ( 'NONE',  ( 2.220446049250313081E-16, 1.000000000000000000, 0.000000000000000000 ) ) ;
#278 = ORIENTED_EDGE ( 'NONE', *, *, #192, .T. ) ;
#279 = AXIS2_PLACEMENT_3D ( 'NONE', #272, #223, #46 ) ;
#280 = CARTESIAN_POINT ( 'NONE',  ( -10.00000000000000178, -9.999999999999996447, 10.00000000000000000 ) ) ;
#281 = EDGE_CURVE ( 'NONE', #104, #11, #80, .T. ) ;
#282 = CARTESIAN_POINT ( 'NONE',  ( -10.00000000000000178, -9.999999999999996447, -10.00000000000000000 ) ) ;
#283 = PERSON_AND_ORGANIZATION_ROLE ( 'creator' ) ;
#284 = SECURITY_CLASSIFICATION_LEVEL ( 'unclassified' ) ;
#285 = LINE ( 'NONE', #183, #57 ) ;
#286 = PERSON_AND_ORGANIZATION ( #105, #161 ) ;
#287 = DIRECTION ( 'NONE',  ( -0.000000000000000000, 0.000000000000000000, -1.000000000000000000 ) ) ;
#288 = DIRECTION ( 'NONE',  ( 1.000000000000000000, 0.000000000000000000, 0.000000000000000000 ) ) ;
#289 = PERSON_AND_ORGANIZATION_ROLE ( 'classification_officer' ) ;
#290 = LINE ( 'NONE', #136, #145 ) ;
#291 = APPROVAL_PERSON_ORGANIZATION ( #286, #127, #63 ) ;
#292 = DIRECTION ( 'NONE',  ( -0.7071067811865475727, -0.7071067811865474617, 0.000000000000000000 ) ) ;
#293 = DIRECTION ( 'NONE',  ( 1.000000000000000000, -2.220446049250313081E-16, 0.000000000000000000 ) ) ;
#294 = DIRECTION ( 'NONE',  ( 0.000000000000000000, 0.000000000000000000, 1.000000000000000000 ) ) ;
#295 = VECTOR ( 'NONE', #292, 1000.000000000000000 ) ;
#296 = EDGE_CURVE ( 'NONE', #1, #104, #99, .T. ) ;
#297 = PRODUCT ( 'BK7-LPBSC-20-980', 'BK7-LPBSC-20-980', '', ( #238 ) ) ;
#298 = ORIENTED_EDGE ( 'NONE', *, *, #82, .F. ) ;
#299 = ORIENTED_EDGE ( 'NONE', *, *, #281, .F. ) ;
#300 = DIRECTION ( 'NONE',  ( 2.220446049250313081E-16, 1.000000000000000000, 0.000000000000000000 ) ) ;
#301 = ORIENTED_EDGE ( 'NONE', *, *, #196, .F. ) ;
#302 = CC_DESIGN_PERSON_AND_ORGANIZATION_ASSIGNMENT ( #262, #308, ( #84 ) ) ;
#303 = ORIENTED_EDGE ( 'NONE', *, *, #29, .T. ) ;
#304 = EDGE_LOOP ( 'NONE', ( #251, #299, #76, #201 ) ) ;
#305 = DIRECTION ( 'NONE',  ( 0.7071067811865474617, -0.7071067811865475727, 0.000000000000000000 ) ) ;
#306 =( GEOMETRIC_REPRESENTATION_CONTEXT ( 3 ) GLOBAL_UNCERTAINTY_ASSIGNED_CONTEXT ( ( #169 ) ) GLOBAL_UNIT_ASSIGNED_CONTEXT ( ( #77, #232, #109 ) ) REPRESENTATION_CONTEXT ( 'NONE', 'WORKASPACE' ) );
#307 = CARTESIAN_POINT ( 'NONE',  ( 10.00000000000000178, 9.999999999999998224, -10.00000000000000000 ) ) ;
#308 = PERSON_AND_ORGANIZATION_ROLE ( 'creator' ) ;
#309 = CALENDAR_DATE ( 2020, 22, 12 ) ;
#310 = ADVANCED_FACE ( 'NONE', ( #120 ), #142, .T. ) ;
#311 = CARTESIAN_POINT ( 'NONE',  ( 10.00000000000000000, 10.00000000000000000, -10.00000000000000000 ) ) ;
#312 = PERSON_AND_ORGANIZATION ( #105, #161 ) ;
#313 = ADVANCED_FACE ( 'NONE', ( #247 ), #150, .F. ) ;
#314 = ORIENTED_EDGE ( 'NONE', *, *, #29, .F. ) ;
#315 = DIRECTION ( 'NONE',  ( -0.7071067811865475727, -0.7071067811865474617, 0.000000000000000000 ) ) ;
#316 = CARTESIAN_POINT ( 'NONE',  ( -9.999999999999998224, 10.00000000000000355, 10.00000000000000000 ) ) ;
#317 = VECTOR ( 'NONE', #321, 1000.000000000000000 ) ;
#318 = CARTESIAN_POINT ( 'NONE',  ( -9.999999999999998224, -10.00000000000000000, -10.00000000000000000 ) ) ;
#319 = CARTESIAN_POINT ( 'NONE',  ( 10.00000000000000178, -10.00000000000000000, 10.00000000000000000 ) ) ;
#320 = ORIENTED_EDGE ( 'NONE', *, *, #167, .F. ) ;
#321 = DIRECTION ( 'NONE',  ( -0.000000000000000000, 1.000000000000000000, -0.000000000000000000 ) ) ;
ENDSEC;
END-ISO-10303-21;
